  0
SECTION
  2
HEADER
  9
$ACADVER
  1
AC1009
  9
$INSBASE
 10
4.801023563620844
 20
-2.728194190193306
 30
0.0
  9
$EXTMIN
 10
9.641762457476673
 20
2.527133504765712
 30
0.0
  9
$EXTMAX
 10
120.5590838205324
 20
83.6269631751615
 30
0.0
  9
$LIMMIN
 10
0.0
 20
0.0
  9
$LIMMAX
 10
420.0
 20
297.0
  9
$ORTHOMODE
 70
     0
  9
$REGENMODE
 70
     1
  9
$FILLMODE
 70
     1
  9
$QTEXTMODE
 70
     0
  9
$MIRRTEXT
 70
     0
  9
$DRAGMODE
 70
     2
  9
$LTSCALE
 40
1.0
  9
$OSMODE
 70
    32
  9
$ATTMODE
 70
     2
  9
$TEXTSIZE
 40
5.0
  9
$TRACEWID
 40
0.1
  9
$TEXTSTYLE
  7
STANDARD
  9
$CLAYER
  8
0
  9
$CELTYPE
  6
BYLAYER
  9
$CECOLOR
 62
   256
  9
$DIMSCALE
 40
1.0
  9
$DIMASZ
 40
2.5
  9
$DIMEXO
 40
1.0
  9
$DIMDLI
 40
8.0
  9
$DIMRND
 40
0.0
  9
$DIMDLE
 40
0.0
  9
$DIMEXE
 40
2.0
  9
$DIMTP
 40
0.1
  9
$DIMTM
 40
0.1
  9
$DIMTXT
 40
3.5
  9
$DIMCEN
 40
2.0
  9
$DIMTSZ
 40
0.0
  9
$DIMTOL
 70
     0
  9
$DIMLIM
 70
     0
  9
$DIMTIH
 70
     0
  9
$DIMTOH
 70
     0
  9
$DIMSE1
 70
     0
  9
$DIMSE2
 70
     0
  9
$DIMTAD
 70
     1
  9
$DIMZIN
 70
     8
  9
$DIMBLK
  1

  9
$DIMASO
 70
     1
  9
$DIMSHO
 70
     1
  9
$DIMPOST
  1

  9
$DIMAPOST
  1

  9
$DIMALT
 70
     0
  9
$DIMALTD
 70
     2
  9
$DIMALTF
 40
25.39999999999999
  9
$DIMLFAC
 40
1.0
  9
$DIMTOFL
 70
     1
  9
$DIMTVP
 40
0.0
  9
$DIMTIX
 70
     0
  9
$DIMSOXD
 70
     0
  9
$DIMSAH
 70
     0
  9
$DIMBLK1
  1

  9
$DIMBLK2
  1

  9
$DIMSTYLE
  2
GEN-ISO
  9
$DIMCLRD
 70
   256
  9
$DIMCLRE
 70
   256
  9
$DIMCLRT
 70
     2
  9
$DIMTFAC
 40
0.71
  9
$DIMGAP
 40
1.5
  9
$LUNITS
 70
     2
  9
$LUPREC
 70
     3
  9
$SKETCHINC
 40
0.1
  9
$FILLETRAD
 40
0.4
  9
$AUNITS
 70
     0
  9
$AUPREC
 70
     1
  9
$MENU
  1

  9
$ELEVATION
 40
0.0
  9
$PELEVATION
 40
0.0
  9
$THICKNESS
 40
0.0
  9
$LIMCHECK
 70
     0
  9
$BLIPMODE
 70
     0
  9
$CHAMFERA
 40
2.5
  9
$CHAMFERB
 40
2.5
  9
$SKPOLY
 70
     1
  9
$TDCREATE
 40
2450059.454367939
  9
$TDUPDATE
 40
2450245.557263541
  9
$TDINDWG
 40
0.0104898148
  9
$TDUSRTIMER
 40
0.0104898148
  9
$USRTIMER
 70
     1
  9
$ANGBASE
 50
0.0
  9
$ANGDIR
 70
     0
  9
$PDMODE
 70
     3
  9
$PDSIZE
 40
0.0
  9
$PLINEWID
 40
0.0
  9
$COORDS
 70
     2
  9
$SPLFRAME
 70
     0
  9
$SPLINETYPE
 70
     6
  9
$SPLINESEGS
 70
     8
  9
$ATTDIA
 70
     1
  9
$ATTREQ
 70
     1
  9
$HANDLING
 70
     1
  9
$HANDSEED
  5
64
  9
$SURFTAB1
 70
     6
  9
$SURFTAB2
 70
     6
  9
$SURFTYPE
 70
     6
  9
$SURFU
 70
     6
  9
$SURFV
 70
     6
  9
$UCSNAME
  2
AIT$ITEM
  9
$UCSORG
 10
0.0
 20
0.0
 30
0.0
  9
$UCSXDIR
 10
1.0
 20
0.0
 30
0.0
  9
$UCSYDIR
 10
0.0
 20
1.0
 30
0.0
  9
$PUCSNAME
  2

  9
$PUCSORG
 10
0.0
 20
0.0
 30
0.0
  9
$PUCSXDIR
 10
1.0
 20
0.0
 30
0.0
  9
$PUCSYDIR
 10
0.0
 20
1.0
 30
0.0
  9
$USERI1
 70
     0
  9
$USERI2
 70
     3
  9
$USERI3
 70
    15
  9
$USERI4
 70
     0
  9
$USERI5
 70
     0
  9
$USERR1
 40
1.0
  9
$USERR2
 40
1.0
  9
$USERR3
 40
0.0
  9
$USERR4
 40
1.0
  9
$USERR5
 40
0.0
  9
$WORLDVIEW
 70
     1
  9
$SHADEDGE
 70
     3
  9
$SHADEDIF
 70
    70
  9
$TILEMODE
 70
     1
  9
$MAXACTVP
 70
     4
  9
$PINSBASE
 10
0.0
 20
0.0
 30
0.0
  9
$PLIMCHECK
 70
     0
  9
$PEXTMIN
 10
1.000000000000000E+20
 20
1.000000000000000E+20
 30
1.000000000000000E+20
  9
$PEXTMAX
 10
-1.000000000000000E+20
 20
-1.000000000000000E+20
 30
-1.000000000000000E+20
  9
$PLIMMIN
 10
0.0
 20
0.0
  9
$PLIMMAX
 10
420.0
 20
297.0
  9
$UNITMODE
 70
     0
  9
$VISRETAIN
 70
     0
  9
$PLINEGEN
 70
     0
  9
$PSLTSCALE
 70
     0
  9
$TREEDEPTH
 70
  3020
  9
$DWGCODEPAGE
  3
dos850
  0
ENDSEC
  0
SECTION
  2
TABLES
  0
TABLE
  2
VPORT
 70
     2
  0
VPORT
  2
*ACTIVE
 70
     0
 10
0.0
 20
0.0
 11
1.0
 21
1.0
 12
64.893316357818
 22
46.25294652291485
 13
0.0
 23
0.0
 14
7.0
 24
7.0
 15
10.0
 25
10.0
 16
0.0
 26
0.0
 36
1.0
 17
0.0
 27
0.0
 37
0.0
 40
86.62319891155209
 41
1.275675675675675
 42
50.0
 43
0.0
 44
0.0
 50
0.0
 51
0.0
 71
     0
 72
   100
 73
     1
 74
     0
 75
     0
 76
     0
 77
     0
 78
     0
  0
ENDTAB
  0
TABLE
  2
LTYPE
 70
     3
  0
LTYPE
  2
CONTINUOUS
 70
    64
  3
Solid line
 72
    65
 73
     0
 40
0.0
  0
LTYPE
  2
GEN
 70
    64
  3
----------------------
 72
    65
 73
     2
 40
10000000000.0
 49
0.0
 49
10000000000.0
  0
LTYPE
  2
AIT$STRICHPGR
 70
    64
  3
____ . ____ . ____ . ____ . ____ . ____ . ____
 72
    65
 73
     4
 40
15.0
 49
10.0
 49
-2.5
 49
0.0
 49
-2.5
  0
ENDTAB
  0
TABLE
  2
LAYER
 70
     5
  0
LAYER
  2
0
 70
     0
 62
     7
  6
GEN
  0
LAYER
  2
ITEM_25
 70
    64
 62
     3
  6
CONTINUOUS
  0
LAYER
  2
ITEM_50
 70
    64
 62
     7
  6
CONTINUOUS
  0
LAYER
  2
ITEM_HILFE
 70
    64
 62
     3
  6
CONTINUOUS
  0
LAYER
  2
ITEM_STPG
 70
    64
 62
     4
  6
AIT$STRICHPGR
  0
ENDTAB
  0
TABLE
  2
STYLE
 70
     1
  0
STYLE
  2
STANDARD
 70
     0
 40
0.0
 41
1.0
 50
0.0
 71
     0
 42
5.0
  3
GENISO
  4

  0
ENDTAB
  0
TABLE
  2
VIEW
 70
     0
  0
ENDTAB
  0
TABLE
  2
UCS
 70
     1
  0
UCS
  2
AIT$ITEM
 70
     0
 10
0.0
 20
0.0
 30
0.0
 11
1.0
 21
0.0
 31
0.0
 12
0.0
 22
1.0
 32
0.0
  0
ENDTAB
  0
TABLE
  2
APPID
 70
    19
  0
APPID
  2
ACAD
 70
    64
  0
APPID
  2
GENIUS_GENODEF_13
 70
    64
  0
APPID
  2
GENIUS_GENOREF_13
 70
    64
  0
APPID
  2
GENIUS_GENOBJ-N-FIL_13
 70
    64
  0
ENDTAB
  0
TABLE
  2
DIMSTYLE
 70
     1
  0
DIMSTYLE
  2
GEN-ISO
 70
     0
  3

  4

  5

  6

  7

 40
1.0
 41
2.5
 42
1.0
 43
8.0
 44
2.0
 45
0.0
 46
0.0
 47
0.1
 48
0.1
140
3.5
141
2.0
142
0.0
143
25.39999999999999
144
1.0
145
0.0
146
0.71
147
1.5
 71
     0
 72
     0
 73
     0
 74
     0
 75
     0
 76
     0
 77
     1
 78
     8
170
     0
171
     2
172
     1
173
     0
174
     0
175
     0
176
   256
177
   256
178
     2
  0
ENDTAB
  0
ENDSEC
  0
SECTION
  2
BLOCKS
  0
ENDSEC
  0
SECTION
  2
ENTITIES
  0
CIRCLE
  8
ITEM_50
  5
1F
 10
41.20108722483234
 20
67.06763840780598
 30
0.0
 40
6.95
  0
CIRCLE
  8
ITEM_50
  5
21
 10
41.20108722483234
 20
67.06763840780598
 30
0.0
 40
6.799999999999999
  0
ARC
  8
ITEM_25
  5
22
 10
41.20108722483217
 20
67.06763840780598
 30
0.0
 40
7.999999999999989
 50
247.5
 51
157.5000000000001
  0
CIRCLE
  8
ITEM_50
  5
24
 10
41.20108722483252
 20
67.06763840780598
 30
0.0
 40
8.4
  0
LINE
  8
ITEM_50
  5
25
 10
14.20108722483195
 20
52.0676384078078
 30
0.0
 11
68.20108722483195
 21
52.06763840780524
 31
0.0
  0
LINE
  8
ITEM_50
  5
26
 10
14.20108722483212
 20
82.06763840780502
 30
0.0
 11
68.20108722483217
 21
82.06763840780695
 31
0.0
  0
LINE
  8
ITEM_50
  5
27
 10
108.1448702581592
 20
52.06763840780621
 30
0.0
 11
108.1448702581591
 21
82.06763840780604
 31
0.0
  0
ARC
  8
ITEM_50
  5
28
 10
14.20108722483223
 20
79.06763840780502
 30
0.0
 40
3.0
 50
90.00000000000203
 51
179.9999999999996
  0
LINE
  8
ITEM_50
  5
29
 10
120.1448702581593
 20
54.06763840780621
 30
0.0
 11
120.1448702581593
 21
80.06763840780604
 31
0.0
  0
LINE
  8
ITEM_50
  5
2A
 10
11.20108722483212
 20
55.0676384078078
 30
0.0
 11
11.20108722483223
 21
79.06763840780507
 31
0.0
  0
ARC
  8
ITEM_50
  5
2B
 10
14.20108722483212
 20
55.0676384078078
 30
0.0
 40
3.0
 50
179.9999999999996
 51
269.9999999999973
  0
LINE
  8
ITEM_STPG
  5
2C
 10
41.20108722483223
 20
75.81536942715882
 30
0.0
 11
41.20108722483212
 21
58.66073269165411
 31
0.0
  0
ARC
  8
ITEM_50
  5
2F
 10
68.20108722483229
 20
79.06763840780695
 30
0.0
 40
3.0
 50
359.9999999999996
 51
90.00000000000207
  0
CIRCLE
  8
ITEM_50
  5
30
 10
26.20108722483234
 20
67.06763840780632
 30
0.0
 40
3.25
  0
CIRCLE
  8
ITEM_50
  5
31
 10
26.20108722483234
 20
67.06763840780632
 30
0.0
 40
5.5
  0
LINE
  8
ITEM_STPG
  5
32
 10
19.25065105095183
 20
67.06763840780523
 30
0.0
 11
62.87222504592074
 21
67.06763840780672
 31
0.0
  0
LINE
  8
ITEM_STPG
  5
33
 10
26.20108722483189
 20
60.8573626728608
 30
0.0
 11
26.20108722483212
 21
73.40953586933329
 31
0.0
  0
CIRCLE
  8
ITEM_50
  5
34
 10
56.201087224832
 20
67.06763840780615
 30
0.0
 40
5.5
  0
CIRCLE
  8
ITEM_50
  5
35
 10
56.201087224832
 20
67.06763840780615
 30
0.0
 40
3.25
  0
LINE
  8
ITEM_STPG
  5
36
 10
56.201087224832
 20
73.40557132007199
 30
0.0
 11
56.201087224832
 21
60.96196496605631
 31
0.0
  0
LINE
  8
ITEM_50
  5
37
 10
71.20108722483212
 20
55.06763840780519
 30
0.0
 11
71.20108722483229
 21
79.06763840780695
 31
0.0
  0
ARC
  8
ITEM_50
  5
38
 10
68.20108722483212
 20
55.06763840780524
 30
0.0
 40
3.0
 50
269.9999999999972
 51
359.9999999999997
  0
LINE
  8
ITEM_50
  5
39
 10
69.20108722483215
 20
2.941347067138806
 30
0.0
 11
13.20108722483212
 21
2.941347067138806
 31
0.0
  0
LINE
  8
ITEM_50
  5
3A
 10
71.20108722483217
 20
14.94134706713879
 30
0.0
 11
11.20108722483212
 21
14.94134706713879
 31
0.0
1001
GENIUS_GENOREF_13
1005
0
  0
LINE
  8
ITEM_50
  5
45
 10
108.1448702581591
 20
82.06763840780604
 30
0.0
 11
118.1448702581593
 21
82.06763840780604
 31
0.0
  0
LINE
  8
ITEM_50
  5
46
 10
108.1448702581591
 20
52.06763840780621
 30
0.0
 11
118.1448702581593
 21
52.06763840780621
 31
0.0
  0
ARC
  8
ITEM_50
  5
47
 10
118.1448702581593
 20
80.06763840780604
 30
0.0
 40
2.0
 50
359.9999999999998
 51
90.0
1001
GENIUS_GENODEF_13
1002
{
1000
HIER
1070
     0
1002
}
1002
{
1000
MANEDIT
1070
     0
1002
}
1002
{
1000
NOSEL
1070
     0
1002
}
1002
{
1000
BEHIND
1070
     0
1002
}
1002
{
1000
REACTOR
1002
}
1001
GENIUS_GENOBJ-N-FIL_13
1002
{
1000
OWNER
1000
GEN
1002
}
  0
ARC
  8
ITEM_50
  5
49
 10
118.1448702581593
 20
54.06763840780621
 30
0.0
 40
2.0
 50
270.0
 51
359.9999999999998
1001
GENIUS_GENODEF_13
1002
{
1000
HIER
1070
     0
1002
}
1002
{
1000
MANEDIT
1070
     0
1002
}
1002
{
1000
NOSEL
1070
     0
1002
}
1002
{
1000
BEHIND
1070
     0
1002
}
1002
{
1000
REACTOR
1002
}
1001
GENIUS_GENOBJ-N-FIL_13
1002
{
1000
OWNER
1000
GEN
1002
}
  0
LINE
  8
ITEM_50
  5
4A
 10
71.20108722483217
 20
14.94134706713879
 30
0.0
 11
71.20108722483215
 21
4.941347067138806
 31
0.0
  0
LINE
  8
ITEM_50
  5
4B
 10
11.20108722483212
 20
14.94134706713879
 30
0.0
 11
11.20108722483212
 21
4.941347067138806
 31
0.0
  0
ARC
  8
ITEM_50
  5
4C
 10
69.20108722483215
 20
4.941347067138806
 30
0.0
 40
2.0
 50
270.0
 51
359.9999999999998
1001
GENIUS_GENODEF_13
1002
{
1000
HIER
1070
     0
1002
}
1002
{
1000
MANEDIT
1070
     0
1002
}
1002
{
1000
NOSEL
1070
     0
1002
}
1002
{
1000
BEHIND
1070
     0
1002
}
1002
{
1000
REACTOR
1002
}
1001
GENIUS_GENOBJ-N-FIL_13
1002
{
1000
OWNER
1000
GEN
1002
}
  0
ARC
  8
ITEM_50
  5
4D
 10
13.20108722483212
 20
4.941347067138806
 30
0.0
 40
2.0
 50
180.0
 51
270.0
1001
GENIUS_GENODEF_13
1002
{
1000
HIER
1070
     0
1002
}
1002
{
1000
MANEDIT
1070
     0
1002
}
1002
{
1000
NOSEL
1070
     0
1002
}
1002
{
1000
BEHIND
1070
     0
1002
}
1002
{
1000
REACTOR
1002
}
1001
GENIUS_GENOBJ-N-FIL_13
1002
{
1000
OWNER
1000
GEN
1002
}
  0
POINT
  8
ITEM_HILFE
  5
4E
 10
11.20108722483212
 20
14.94134706713879
 30
0.0
  0
POINT
  8
ITEM_HILFE
  5
50
 10
11.20108722483212
 20
82.06763840780605
 30
0.0
  0
POINT
  8
ITEM_HILFE
  5
51
 10
108.1448702581591
 20
82.06763840780604
 30
0.0
  0
POINT
  8
ITEM_HILFE
  5
52
 10
71.20108722483217
 20
82.06763840780605
 30
0.0
  0
POINT
  8
ITEM_HILFE
  5
53
 10
71.20108722483217
 20
52.06763840780682
 30
0.0
  0
POINT
  8
ITEM_HILFE
  5
54
 10
11.20108722483212
 20
52.06763840780682
 30
0.0
  0
ENDSEC
  0
EOF
